Greensleeves for Ukulele Tab

I'm a big fan of the Ukulele. There's a lot of basic stuff on the internet for the Uke but here's some cooler stuff! (standard GCEA tuning)

Greensleeves

-0-3-5-7-8-7-5-2---0-2-3-0-0--0-2-----
---0---0-----3---3-----1-----4--4-4---
---0---0-----2---------0--------4---4-
---2---2-----0---------2--------------


-0-3-5-7-8-7-5-2---0-2-3-2-0-------0-
---0---0-----3---3-----1-----4-2-4-0-
---0---0-----2---------0-----4-----0-
---2---2-----0---------2-----------2-


-10-10-8-7-5-2---0-2-3-0-0--0-2-----
-0---------3---3-----1-----4--4-4---
-0---------2---------0--------4---4-
-0---------0---------2--------------


-0-3-5-7-8-7-5-2---0-2-3-2-0-------0-
---0---0-----3---3-----1-----4-2-4-0-
---0---0-----2---------0-----4-----0-
---2---2-----0---------2-----------2-

8 bar blues shuffle in C

8 Bar Blues
/C---/F---/C---/G---/C---/G---/F---/C---

C chord shuffle
-3-0-1-0-
-0-1-5-1-
-0-0-0-0-
-0-2-0-2-

F chord shuffle
-0-1-3-1-
-1-1-1-1-
-0-2-3-2-
-2-3-x-3-

G chord shuffle
-2-3-5-3--
-3-0-1-0--
-2-0-2-0--
-0-0-0-0--

Blues scale in C
-----------1-3-
-----1-2-3-----
-0-3-----------
---------------

Chris Owen's Website